ISO-10303-21;
HEADER;
FILE_DESCRIPTION (( 'STEP AP203' ),
    '1' );
FILE_NAME ('QM-CAHWP-10-550-750-M.STEP',
    '2021-01-05T02:34:15',
    ( '' ),
    ( '' ),
    'SwSTEP 2.0',
    'SolidWorks 2020',
    '' );
FILE_SCHEMA (( 'CONFIG_CONTROL_DESIGN' ));
ENDSEC;

DATA;
#1 = CARTESIAN_POINT ( 'NONE',  ( -0.5000000000000002220, 0.000000000000000000, 0.000000000000000000 ) ) ;
#2 = EDGE_CURVE ( 'NONE', #198, #201, #122, .T. ) ;
#3 = COORDINATED_UNIVERSAL_TIME_OFFSET ( 8, 0, .AHEAD. ) ;
#4 = DIRECTION ( 'NONE',  ( -1.000000000000000000, -0.000000000000000000, -0.000000000000000000 ) ) ;
#5 = VECTOR ( 'NONE', #280, 1000.000000000000000 ) ;
#6 = CALENDAR_DATE ( 2021, 5, 1 ) ;
#7 = ORIENTED_EDGE ( 'NONE', *, *, #227, .T. ) ;
#8 = DIRECTION ( 'NONE',  ( 1.000000000000000000, 0.000000000000000000, 0.000000000000000000 ) ) ;
#9 = DIRECTION ( 'NONE',  ( -0.000000000000000000, 0.000000000000000000, 1.000000000000000000 ) ) ;
#10 = ORIENTED_EDGE ( 'NONE', *, *, #272, .T. ) ;
#11 = ORIENTED_EDGE ( 'NONE', *, *, #2, .F. ) ;
#12 = AXIS2_PLACEMENT_3D ( 'NONE', #89, #301, #309 ) ;
#13 = DIRECTION ( 'NONE',  ( 0.000000000000000000, 0.000000000000000000, 1.000000000000000000 ) ) ;
#14 = CC_DESIGN_PERSON_AND_ORGANIZATION_ASSIGNMENT ( #285, #184, ( #126 ) ) ;
#15 = FACE_BOUND ( 'NONE', #83, .T. ) ;
#16 = FACE_OUTER_BOUND ( 'NONE', #214, .T. ) ;
#17 = SECURITY_CLASSIFICATION ( '', '', #54 ) ;
#18 = DIRECTION ( 'NONE',  ( -1.000000000000000000, -0.000000000000000000, -0.000000000000000000 ) ) ;
#19 = VERTEX_POINT ( 'NONE', #208 ) ;
#20 = PRODUCT_RELATED_PRODUCT_CATEGORY ( 'detail', '', ( #228 ) ) ;
#21 = CARTESIAN_POINT ( 'NONE',  ( -3.000000000000000000, 0.000000000000000000, 12.69999999999999929 ) ) ;
#22 = CARTESIAN_POINT ( 'NONE',  ( -3.000000000000000000, 0.000000000000000000, 0.000000000000000000 ) ) ;
#23 = LINE ( 'NONE', #127, #234 ) ;
#24 = DIRECTION ( 'NONE',  ( 0.000000000000000000, 0.000000000000000000, 1.000000000000000000 ) ) ;
#25 = PERSON_AND_ORGANIZATION ( #34, #200 ) ;
#26 = DIRECTION ( 'NONE',  ( 0.000000000000000000, 0.000000000000000000, 1.000000000000000000 ) ) ;
#27 = DIRECTION ( 'NONE',  ( -1.000000000000000000, -0.000000000000000000, -0.000000000000000000 ) ) ;
#28 = PERSON_AND_ORGANIZATION_ROLE ( 'creator' ) ;
#29 = CIRCLE ( 'NONE', #231, 5.000000000000001776 ) ;
#30 = APPROVAL_STATUS ( 'not_yet_approved' ) ;
#31 = APPROVAL_DATE_TIME ( #293, #40 ) ;
#32 = DIRECTION ( 'NONE',  ( 0.000000000000000000, 0.000000000000000000, -1.000000000000000000 ) ) ;
#33 = VERTEX_POINT ( 'NONE', #72 ) ;
#34 = PERSON ( 'UNSPECIFIED', 'UNSPECIFIED', 'UNSPECIFIED', ('UNSPECIFIED'), ('UNSPECIFIED'), ('UNSPECIFIED') ) ;
#35 = CARTESIAN_POINT ( 'NONE',  ( 0.5000000000000002220, 5.000000000000000000, 0.000000000000000000 ) ) ;
#36 = CARTESIAN_POINT ( 'NONE',  ( -1.614212418857619014, 0.000000000000000000, 0.000000000000000000 ) ) ;
#37 = ORIENTED_EDGE ( 'NONE', *, *, #131, .F. ) ;
#38 = EDGE_LOOP ( 'NONE', ( #116, #111, #93, #268 ) ) ;
#39 = CIRCLE ( 'NONE', #246, 5.000000000000000000 ) ;
#40 = APPROVAL ( #80, 'UNSPECIFIED' ) ;
#41 = PLANE ( 'NONE',  #140 ) ;
#42 = DIRECTION ( 'NONE',  ( 0.000000000000000000, 0.000000000000000000, 1.000000000000000000 ) ) ;
#43 = ORIENTED_EDGE ( 'NONE', *, *, #49, .F. ) ;
#44 = CC_DESIGN_PERSON_AND_ORGANIZATION_ASSIGNMENT ( #314, #79, ( #126 ) ) ;
#45 = FACE_OUTER_BOUND ( 'NONE', #298, .T. ) ;
#46 = DIRECTION ( 'NONE',  ( -1.000000000000000000, -0.000000000000000000, -0.000000000000000000 ) ) ;
#47 = CARTESIAN_POINT ( 'NONE',  ( -1.614212418857619014, 0.000000000000000000, 12.69999999999999929 ) ) ;
#48 = DIRECTION ( 'NONE',  ( -1.000000000000000000, -0.000000000000000000, -0.000000000000000000 ) ) ;
#49 = EDGE_CURVE ( 'NONE', #19, #233, #308, .T. ) ;
#50 = APPLICATION_CONTEXT ( 'configuration controlled 3d designs of mechanical parts and assemblies' ) ;
#51 = VECTOR ( 'NONE', #154, 1000.000000000000000 ) ;
#52 = CC_DESIGN_PERSON_AND_ORGANIZATION_ASSIGNMENT ( #25, #28, ( #171 ) ) ;
#53 = DIRECTION ( 'NONE',  ( -1.000000000000000000, -0.000000000000000000, -0.000000000000000000 ) ) ;
#54 = SECURITY_CLASSIFICATION_LEVEL ( 'unclassified' ) ;
#55 = FACE_OUTER_BOUND ( 'NONE', #60, .T. ) ;
#56 =( NAMED_UNIT ( * ) SI_UNIT ( $, .STERADIAN. ) SOLID_ANGLE_UNIT ( ) );
#57 = DATE_AND_TIME ( #222, #316 ) ;
#58 = AXIS2_PLACEMENT_3D ( 'NONE', #100, #180, #74 ) ;
#59 = ADVANCED_FACE ( 'NONE', ( #16 ), #121, .F. ) ;
#60 = EDGE_LOOP ( 'NONE', ( #173, #7, #307, #125 ) ) ;
#61 = CARTESIAN_POINT ( 'NONE',  ( -3.000000000000000000, 1.555301434917138433E-15, -12.69999999999999929 ) ) ;
#62 = LOCAL_TIME ( 10, 34, 15.00000000000000000, #218 ) ;
#63 = CARTESIAN_POINT ( 'NONE',  ( 0.5000000000000004441, 0.000000000000000000, 0.000000000000000000 ) ) ;
#64 = VERTEX_POINT ( 'NONE', #177 ) ;
#65 = APPROVAL_PERSON_ORGANIZATION ( #312, #67, #288 ) ;
#66 = ORIENTED_EDGE ( 'NONE', *, *, #232, .T. ) ;
#67 = APPROVAL ( #188, 'UNSPECIFIED' ) ;
#68 = DIRECTION ( 'NONE',  ( -1.000000000000000000, -0.000000000000000000, -0.000000000000000000 ) ) ;
#69 = CARTESIAN_POINT ( 'NONE',  ( -3.000000000000000000, 0.000000000000000000, 0.000000000000000000 ) ) ;
#70 =( GEOMETRIC_REPRESENTATION_CONTEXT ( 3 ) GLOBAL_UNCERTAINTY_ASSIGNED_CONTEXT ( ( #220 ) ) GLOBAL_UNIT_ASSIGNED_CONTEXT ( ( #133, #290, #56 ) ) REPRESENTATION_CONTEXT ( 'NONE', 'WORKASPACE' ) );
#71 = DIRECTION ( 'NONE',  ( -1.000000000000000000, -0.000000000000000000, -0.000000000000000000 ) ) ;
#72 = CARTESIAN_POINT ( 'NONE',  ( -0.5000000000000002220, 0.000000000000000000, 5.000000000000000888 ) ) ;
#73 = APPROVAL ( #30, 'UNSPECIFIED' ) ;
#74 = DIRECTION ( 'NONE',  ( 0.000000000000000000, 0.000000000000000000, -1.000000000000000000 ) ) ;
#75 = DIRECTION ( 'NONE',  ( -1.000000000000000000, -0.000000000000000000, -0.000000000000000000 ) ) ;
#76 = PERSON_AND_ORGANIZATION ( #34, #200 ) ;
#77 = CIRCLE ( 'NONE', #249, 12.69999999999999929 ) ;
#78 = CARTESIAN_POINT ( 'NONE',  ( -3.000000000000000000, 0.000000000000000000, 0.000000000000000000 ) ) ;
#79 = PERSON_AND_ORGANIZATION_ROLE ( 'creator' ) ;
#80 = APPROVAL_STATUS ( 'not_yet_approved' ) ;
#81 = AXIS2_PLACEMENT_3D ( 'NONE', #264, #103, #193 ) ;
#82 = FACE_OUTER_BOUND ( 'NONE', #294, .T. ) ;
#83 = EDGE_LOOP ( 'NONE', ( #174, #303 ) ) ;
#84 = ORIENTED_EDGE ( 'NONE', *, *, #192, .T. ) ;
#85 = ORIENTED_EDGE ( 'NONE', *, *, #275, .F. ) ;
#86 = CLOSED_SHELL ( 'NONE', ( #160, #59, #189, #219, #202, #124, #244, #151, #104, #210 ) ) ;
#87 = APPROVAL_PERSON_ORGANIZATION ( #262, #73, #221 ) ;
#88 = PRODUCT_DEFINITION_SHAPE ( 'NONE', 'NONE',  #171 ) ;
#89 = CARTESIAN_POINT ( 'NONE',  ( -1.614212418857619014, 0.000000000000000000, 0.000000000000000000 ) ) ;
#90 = CIRCLE ( 'NONE', #323, 5.000000000000000000 ) ;
#91 = DIRECTION ( 'NONE',  ( -1.000000000000000000, -0.000000000000000000, -0.000000000000000000 ) ) ;
#92 = FACE_OUTER_BOUND ( 'NONE', #38, .T. ) ;
#93 = ORIENTED_EDGE ( 'NONE', *, *, #332, .T. ) ;
#94 = MANIFOLD_SOLID_BREP ( 'Ðý×', #86 ) ;
#95 = ORIENTED_EDGE ( 'NONE', *, *, #153, .T. ) ;
#96 = CIRCLE ( 'NONE', #270, 12.69999999999999929 ) ;
#97 = SHAPE_DEFINITION_REPRESENTATION ( #88, #148 ) ;
#98 = EDGE_LOOP ( 'NONE', ( #114, #85 ) ) ;
#99 = CC_DESIGN_PERSON_AND_ORGANIZATION_ASSIGNMENT ( #107, #238, ( #228 ) ) ;
#100 = CARTESIAN_POINT ( 'NONE',  ( -3.000000000000000000, 5.000000000000000000, 0.000000000000000000 ) ) ;
#101 = APPROVAL_ROLE ( '' ) ;
#102 = DIRECTION ( 'NONE',  ( 1.000000000000000000, 0.000000000000000000, 0.000000000000000000 ) ) ;
#103 = DIRECTION ( 'NONE',  ( 0.000000000000000000, 0.000000000000000000, 1.000000000000000000 ) ) ;
#104 = ADVANCED_FACE ( 'NONE', ( #176, #146 ), #41, .F. ) ;
#105 = AXIS2_PLACEMENT_3D ( 'NONE', #159, #53, #26 ) ;
#106 = DATE_TIME_ROLE ( 'creation_date' ) ;
#107 = PERSON_AND_ORGANIZATION ( #34, #200 ) ;
#108 = CIRCLE ( 'NONE', #333, 12.69999999999999929 ) ;
#109 = ORIENTED_EDGE ( 'NONE', *, *, #299, .T. ) ;
#110 = PLANE ( 'NONE',  #145 ) ;
#111 = ORIENTED_EDGE ( 'NONE', *, *, #185, .T. ) ;
#112 = CARTESIAN_POINT ( 'NONE',  ( 3.000000000000000000, 6.123233995736768255E-16, -5.000000000000001776 ) ) ;
#113 = ORIENTED_EDGE ( 'NONE', *, *, #232, .F. ) ;
#114 = ORIENTED_EDGE ( 'NONE', *, *, #272, .F. ) ;
#115 = CIRCLE ( 'NONE', #175, 12.69999999999999929 ) ;
#116 = ORIENTED_EDGE ( 'NONE', *, *, #203, .F. ) ;
#117 = CARTESIAN_POINT ( 'NONE',  ( 3.000000000000000000, 12.69999999999999929, 0.000000000000000000 ) ) ;
#118 = DIRECTION ( 'NONE',  ( 0.000000000000000000, 0.000000000000000000, 1.000000000000000000 ) ) ;
#119 = CARTESIAN_POINT ( 'NONE',  ( -1.614212418857619014, 0.000000000000000000, 5.000000000000000888 ) ) ;
#120 = AXIS2_PLACEMENT_3D ( 'NONE', #236, #209, #329 ) ;
#121 = CYLINDRICAL_SURFACE ( 'NONE', #12, 5.000000000000000888 ) ;
#122 = LINE ( 'NONE', #327, #162 ) ;
#123 = CARTESIAN_POINT ( 'NONE',  ( 3.000000000000000000, 0.000000000000000000, 0.000000000000000000 ) ) ;
#124 = ADVANCED_FACE ( 'NONE', ( #92 ), #331, .F. ) ;
#125 = ORIENTED_EDGE ( 'NONE', *, *, #137, .F. ) ;
#126 = PRODUCT_DEFINITION_FORMATION_WITH_SPECIFIED_SOURCE ( 'ANY', '', #228, .NOT_KNOWN. ) ;
#127 = CARTESIAN_POINT ( 'NONE',  ( -1.614212418857619014, 0.000000000000000000, 5.000000000000000888 ) ) ;
#128 = DIRECTION ( 'NONE',  ( 1.000000000000000000, 0.000000000000000000, 0.000000000000000000 ) ) ;
#129 = PERSON_AND_ORGANIZATION ( #34, #200 ) ;
#130 = DIRECTION ( 'NONE',  ( -1.000000000000000000, -0.000000000000000000, -0.000000000000000000 ) ) ;
#131 = EDGE_CURVE ( 'NONE', #201, #253, #115, .T. ) ;
#132 = DIRECTION ( 'NONE',  ( 0.000000000000000000, 0.000000000000000000, 1.000000000000000000 ) ) ;
#133 =( LENGTH_UNIT ( ) NAMED_UNIT ( * ) SI_UNIT ( .MILLI., .METRE. ) );
#134 = AXIS2_PLACEMENT_3D ( 'NONE', #304, #283, #257 ) ;
#135 = CC_DESIGN_APPROVAL ( #73, ( #17 ) ) ;
#136 = CALENDAR_DATE ( 2021, 5, 1 ) ;
#137 = EDGE_CURVE ( 'NONE', #64, #233, #147, .T. ) ;
#138 = EDGE_LOOP ( 'NONE', ( #10, #141, #143, #204 ) ) ;
#139 = CARTESIAN_POINT ( 'NONE',  ( -1.614212418857619014, 6.123233995736767268E-16, -5.000000000000000888 ) ) ;
#140 = AXIS2_PLACEMENT_3D ( 'NONE', #117, #178, #181 ) ;
#141 = ORIENTED_EDGE ( 'NONE', *, *, #2, .T. ) ;
#142 = LINE ( 'NONE', #139, #300 ) ;
#143 = ORIENTED_EDGE ( 'NONE', *, *, #190, .F. ) ;
#144 = VERTEX_POINT ( 'NONE', #281 ) ;
#145 = AXIS2_PLACEMENT_3D ( 'NONE', #168, #8, #197 ) ;
#146 = FACE_BOUND ( 'NONE', #319, .T. ) ;
#147 = LINE ( 'NONE', #119, #5 ) ;
#148 = ADVANCED_BREP_SHAPE_REPRESENTATION ( 'QM-CAHWP-10-550-750-M', ( #94, #81 ), #70 ) ;
#149 = CARTESIAN_POINT ( 'NONE',  ( 0.5000000000000004441, 0.000000000000000000, 0.000000000000000000 ) ) ;
#150 = APPROVAL_PERSON_ORGANIZATION ( #76, #40, #101 ) ;
#151 = ADVANCED_FACE ( 'NONE', ( #45 ), #152, .T. ) ;
#152 = CYLINDRICAL_SURFACE ( 'NONE', #206, 12.69999999999999929 ) ;
#153 = EDGE_CURVE ( 'NONE', #334, #253, #255, .T. ) ;
#154 = DIRECTION ( 'NONE',  ( -1.000000000000000000, -0.000000000000000000, -0.000000000000000000 ) ) ;
#155 = CIRCLE ( 'NONE', #223, 5.000000000000000000 ) ;
#156 = CARTESIAN_POINT ( 'NONE',  ( -1.614212418857619014, 0.000000000000000000, 0.000000000000000000 ) ) ;
#157 = EDGE_CURVE ( 'NONE', #276, #144, #39, .T. ) ;
#158 = DATE_TIME_ROLE ( 'classification_date' ) ;
#159 = CARTESIAN_POINT ( 'NONE',  ( -1.614212418857619014, 0.000000000000000000, 0.000000000000000000 ) ) ;
#160 = ADVANCED_FACE ( 'NONE', ( #289 ), #240, .T. ) ;
#161 = DATE_AND_TIME ( #136, #62 ) ;
#162 = VECTOR ( 'NONE', #68, 1000.000000000000000 ) ;
#163 = APPLICATION_PROTOCOL_DEFINITION ( 'international standard', 'config_control_design', 1994, #265 ) ;
#164 = EDGE_CURVE ( 'NONE', #144, #276, #90, .T. ) ;
#165 = CARTESIAN_POINT ( 'NONE',  ( 3.000000000000000000, 1.555301434917138433E-15, -12.69999999999999929 ) ) ;
#166 = DESIGN_CONTEXT ( 'detailed design', #265, 'design' ) ;
#167 = ORIENTED_EDGE ( 'NONE', *, *, #252, .T. ) ;
#168 = CARTESIAN_POINT ( 'NONE',  ( -0.5000000000000002220, 5.000000000000000000, 0.000000000000000000 ) ) ;
#169 = CC_DESIGN_APPROVAL ( #40, ( #171 ) ) ;
#170 = ORIENTED_EDGE ( 'NONE', *, *, #192, .F. ) ;
#171 = PRODUCT_DEFINITION ( 'UNKNOWN', '', #126, #166 ) ;
#172 = DIRECTION ( 'NONE',  ( -1.000000000000000000, -0.000000000000000000, -0.000000000000000000 ) ) ;
#173 = ORIENTED_EDGE ( 'NONE', *, *, #299, .F. ) ;
#174 = ORIENTED_EDGE ( 'NONE', *, *, #157, .F. ) ;
#175 = AXIS2_PLACEMENT_3D ( 'NONE', #69, #279, #42 ) ;
#176 = FACE_OUTER_BOUND ( 'NONE', #98, .T. ) ;
#177 = CARTESIAN_POINT ( 'NONE',  ( 3.000000000000000000, 0.000000000000000000, 5.000000000000001776 ) ) ;
#178 = DIRECTION ( 'NONE',  ( -1.000000000000000000, 0.000000000000000000, -0.000000000000000000 ) ) ;
#179 = CC_DESIGN_SECURITY_CLASSIFICATION ( #17, ( #126 ) ) ;
#180 = DIRECTION ( 'NONE',  ( 1.000000000000000000, 0.000000000000000000, 0.000000000000000000 ) ) ;
#181 = DIRECTION ( 'NONE',  ( -0.000000000000000000, 0.000000000000000000, 1.000000000000000000 ) ) ;
#182 = CARTESIAN_POINT ( 'NONE',  ( 3.000000000000000000, 0.000000000000000000, 0.000000000000000000 ) ) ;
#183 = EDGE_LOOP ( 'NONE', ( #250, #274 ) ) ;
#184 = PERSON_AND_ORGANIZATION_ROLE ( 'design_supplier' ) ;
#185 = EDGE_CURVE ( 'NONE', #205, #33, #254, .T. ) ;
#186 = DIRECTION ( 'NONE',  ( 0.000000000000000000, 0.000000000000000000, -1.000000000000000000 ) ) ;
#187 = AXIS2_PLACEMENT_3D ( 'NONE', #1, #102, #32 ) ;
#188 = APPROVAL_STATUS ( 'not_yet_approved' ) ;
#189 = ADVANCED_FACE ( 'NONE', ( #55 ), #286, .F. ) ;
#190 = EDGE_CURVE ( 'NONE', #253, #201, #108, .T. ) ;
#191 = COORDINATED_UNIVERSAL_TIME_OFFSET ( 8, 0, .AHEAD. ) ;
#192 = EDGE_CURVE ( 'NONE', #33, #205, #241, .T. ) ;
#193 = DIRECTION ( 'NONE',  ( 1.000000000000000000, 0.000000000000000000, 0.000000000000000000 ) ) ;
#194 = CIRCLE ( 'NONE', #120, 5.000000000000001776 ) ;
#195 = CYLINDRICAL_SURFACE ( 'NONE', #213, 5.000000000000000888 ) ;
#196 = ORIENTED_EDGE ( 'NONE', *, *, #252, .F. ) ;
#197 = DIRECTION ( 'NONE',  ( 0.000000000000000000, 0.000000000000000000, -1.000000000000000000 ) ) ;
#198 = VERTEX_POINT ( 'NONE', #165 ) ;
#199 = CARTESIAN_POINT ( 'NONE',  ( -0.5000000000000002220, 6.123233995736767268E-16, -5.000000000000000888 ) ) ;
#200 = ORGANIZATION ( 'UNSPECIFIED', 'UNSPECIFIED', '' ) ;
#201 = VERTEX_POINT ( 'NONE', #61 ) ;
#202 = ADVANCED_FACE ( 'NONE', ( #82 ), #195, .F. ) ;
#203 = EDGE_CURVE ( 'NONE', #205, #144, #142, .T. ) ;
#204 = ORIENTED_EDGE ( 'NONE', *, *, #153, .F. ) ;
#205 = VERTEX_POINT ( 'NONE', #199 ) ;
#206 = AXIS2_PLACEMENT_3D ( 'NONE', #230, #330, #13 ) ;
#207 = CARTESIAN_POINT ( 'NONE',  ( 3.000000000000000000, 0.000000000000000000, 12.69999999999999929 ) ) ;
#208 = CARTESIAN_POINT ( 'NONE',  ( 0.5000000000000004441, 6.123233995736766282E-16, -5.000000000000000000 ) ) ;
#209 = DIRECTION ( 'NONE',  ( -1.000000000000000000, -0.000000000000000000, -0.000000000000000000 ) ) ;
#210 = ADVANCED_FACE ( 'NONE', ( #224 ), #110, .F. ) ;
#211 = DIRECTION ( 'NONE',  ( 0.000000000000000000, 0.000000000000000000, 1.000000000000000000 ) ) ;
#212 = EDGE_LOOP ( 'NONE', ( #170, #271 ) ) ;
#213 = AXIS2_PLACEMENT_3D ( 'NONE', #36, #245, #267 ) ;
#214 = EDGE_LOOP ( 'NONE', ( #84, #278, #326, #248 ) ) ;
#215 = CALENDAR_DATE ( 2021, 5, 1 ) ;
#216 = LOCAL_TIME ( 10, 34, 15.00000000000000000, #191 ) ;
#217 = COORDINATED_UNIVERSAL_TIME_OFFSET ( 8, 0, .AHEAD. ) ;
#218 = COORDINATED_UNIVERSAL_TIME_OFFSET ( 8, 0, .AHEAD. ) ;
#219 = ADVANCED_FACE ( 'NONE', ( #295 ), #269, .F. ) ;
#220 = UNCERTAINTY_MEASURE_WITH_UNIT (LENGTH_MEASURE( 1.000000000000000082E-05 ), #133, 'distance_accuracy_value', 'NONE');
#221 = APPROVAL_ROLE ( '' ) ;
#222 = CALENDAR_DATE ( 2021, 5, 1 ) ;
#223 = AXIS2_PLACEMENT_3D ( 'NONE', #63, #172, #273 ) ;
#224 = FACE_OUTER_BOUND ( 'NONE', #212, .T. ) ;
#225 = VERTEX_POINT ( 'NONE', #112 ) ;
#226 = LINE ( 'NONE', #322, #282 ) ;
#227 = EDGE_CURVE ( 'NONE', #225, #19, #226, .T. ) ;
#228 = PRODUCT ( 'QM-CAHWP-10-550-750-M', 'QM-CAHWP-10-550-750-M', '', ( #266 ) ) ;
#229 = DIRECTION ( 'NONE',  ( 0.000000000000000000, 0.000000000000000000, 1.000000000000000000 ) ) ;
#230 = CARTESIAN_POINT ( 'NONE',  ( -1.614212418857619014, 0.000000000000000000, 0.000000000000000000 ) ) ;
#231 = AXIS2_PLACEMENT_3D ( 'NONE', #182, #46, #256 ) ;
#232 = EDGE_CURVE ( 'NONE', #233, #19, #155, .T. ) ;
#233 = VERTEX_POINT ( 'NONE', #302 ) ;
#234 = VECTOR ( 'NONE', #91, 1000.000000000000000 ) ;
#235 = DATE_AND_TIME ( #315, #324 ) ;
#236 = CARTESIAN_POINT ( 'NONE',  ( 3.000000000000000000, 0.000000000000000000, 0.000000000000000000 ) ) ;
#237 = APPROVAL_DATE_TIME ( #235, #73 ) ;
#238 = PERSON_AND_ORGANIZATION_ROLE ( 'design_owner' ) ;
#239 = DIRECTION ( 'NONE',  ( 0.000000000000000000, 0.000000000000000000, 1.000000000000000000 ) ) ;
#240 = CYLINDRICAL_SURFACE ( 'NONE', #328, 12.69999999999999929 ) ;
#241 = CIRCLE ( 'NONE', #187, 5.000000000000000888 ) ;
#242 = APPLICATION_PROTOCOL_DEFINITION ( 'international standard', 'config_control_design', 1994, #50 ) ;
#243 = COORDINATED_UNIVERSAL_TIME_OFFSET ( 8, 0, .AHEAD. ) ;
#244 = ADVANCED_FACE ( 'NONE', ( #15, #310 ), #305, .F. ) ;
#245 = DIRECTION ( 'NONE',  ( -1.000000000000000000, -0.000000000000000000, -0.000000000000000000 ) ) ;
#246 = AXIS2_PLACEMENT_3D ( 'NONE', #22, #130, #311 ) ;
#247 = DIRECTION ( 'NONE',  ( -1.000000000000000000, 0.000000000000000000, -0.000000000000000000 ) ) ;
#248 = ORIENTED_EDGE ( 'NONE', *, *, #332, .F. ) ;
#249 = AXIS2_PLACEMENT_3D ( 'NONE', #123, #18, #118 ) ;
#250 = ORIENTED_EDGE ( 'NONE', *, *, #190, .T. ) ;
#251 = ORIENTED_EDGE ( 'NONE', *, *, #227, .F. ) ;
#252 = EDGE_CURVE ( 'NONE', #64, #225, #29, .T. ) ;
#253 = VERTEX_POINT ( 'NONE', #21 ) ;
#254 = CIRCLE ( 'NONE', #287, 5.000000000000000888 ) ;
#255 = LINE ( 'NONE', #47, #51 ) ;
#256 = DIRECTION ( 'NONE',  ( 0.000000000000000000, 0.000000000000000000, 1.000000000000000000 ) ) ;
#257 = DIRECTION ( 'NONE',  ( 0.000000000000000000, 0.000000000000000000, 1.000000000000000000 ) ) ;
#258 = CARTESIAN_POINT ( 'NONE',  ( -3.000000000000000000, 0.000000000000000000, 5.000000000000000000 ) ) ;
#259 = CC_DESIGN_DATE_AND_TIME_ASSIGNMENT ( #161, #158, ( #17 ) ) ;
#260 = CC_DESIGN_APPROVAL ( #67, ( #126 ) ) ;
#261 = CARTESIAN_POINT ( 'NONE',  ( -0.5000000000000002220, 0.000000000000000000, 0.000000000000000000 ) ) ;
#262 = PERSON_AND_ORGANIZATION ( #34, #200 ) ;
#263 = CARTESIAN_POINT ( 'NONE',  ( -3.000000000000000000, 0.000000000000000000, 0.000000000000000000 ) ) ;
#264 = CARTESIAN_POINT ( 'NONE',  ( 0.000000000000000000, 0.000000000000000000, 0.000000000000000000 ) ) ;
#265 = APPLICATION_CONTEXT ( 'configuration controlled 3d designs of mechanical parts and assemblies' ) ;
#266 = MECHANICAL_CONTEXT ( 'NONE', #50, 'mechanical' ) ;
#267 = DIRECTION ( 'NONE',  ( 0.000000000000000000, 0.000000000000000000, 1.000000000000000000 ) ) ;
#268 = ORIENTED_EDGE ( 'NONE', *, *, #157, .T. ) ;
#269 = PLANE ( 'NONE',  #292 ) ;
#270 = AXIS2_PLACEMENT_3D ( 'NONE', #284, #48, #229 ) ;
#271 = ORIENTED_EDGE ( 'NONE', *, *, #185, .F. ) ;
#272 = EDGE_CURVE ( 'NONE', #334, #198, #77, .T. ) ;
#273 = DIRECTION ( 'NONE',  ( 0.000000000000000000, 0.000000000000000000, 1.000000000000000000 ) ) ;
#274 = ORIENTED_EDGE ( 'NONE', *, *, #131, .T. ) ;
#275 = EDGE_CURVE ( 'NONE', #198, #334, #96, .T. ) ;
#276 = VERTEX_POINT ( 'NONE', #258 ) ;
#277 = LOCAL_TIME ( 10, 34, 15.00000000000000000, #3 ) ;
#278 = ORIENTED_EDGE ( 'NONE', *, *, #203, .T. ) ;
#279 = DIRECTION ( 'NONE',  ( -1.000000000000000000, -0.000000000000000000, -0.000000000000000000 ) ) ;
#280 = DIRECTION ( 'NONE',  ( -1.000000000000000000, -0.000000000000000000, -0.000000000000000000 ) ) ;
#281 = CARTESIAN_POINT ( 'NONE',  ( -3.000000000000000000, 6.123233995736766282E-16, -5.000000000000000000 ) ) ;
#282 = VECTOR ( 'NONE', #296, 1000.000000000000000 ) ;
#283 = DIRECTION ( 'NONE',  ( -1.000000000000000000, -0.000000000000000000, -0.000000000000000000 ) ) ;
#284 = CARTESIAN_POINT ( 'NONE',  ( 3.000000000000000000, 0.000000000000000000, 0.000000000000000000 ) ) ;
#285 = PERSON_AND_ORGANIZATION ( #34, #200 ) ;
#286 = CYLINDRICAL_SURFACE ( 'NONE', #105, 5.000000000000000888 ) ;
#287 = AXIS2_PLACEMENT_3D ( 'NONE', #261, #128, #186 ) ;
#288 = APPROVAL_ROLE ( '' ) ;
#289 = FACE_OUTER_BOUND ( 'NONE', #138, .T. ) ;
#290 =( NAMED_UNIT ( * ) PLANE_ANGLE_UNIT ( ) SI_UNIT ( $, .RADIAN. ) );
#291 = DATE_AND_TIME ( #6, #277 ) ;
#292 = AXIS2_PLACEMENT_3D ( 'NONE', #35, #247, #9 ) ;
#293 = DATE_AND_TIME ( #215, #216 ) ;
#294 = EDGE_LOOP ( 'NONE', ( #251, #196, #321, #66 ) ) ;
#295 = FACE_OUTER_BOUND ( 'NONE', #325, .T. ) ;
#296 = DIRECTION ( 'NONE',  ( -1.000000000000000000, -0.000000000000000000, -0.000000000000000000 ) ) ;
#297 = ORIENTED_EDGE ( 'NONE', *, *, #275, .T. ) ;
#298 = EDGE_LOOP ( 'NONE', ( #11, #297, #95, #37 ) ) ;
#299 = EDGE_CURVE ( 'NONE', #225, #64, #194, .T. ) ;
#300 = VECTOR ( 'NONE', #320, 1000.000000000000000 ) ;
#301 = DIRECTION ( 'NONE',  ( -1.000000000000000000, -0.000000000000000000, -0.000000000000000000 ) ) ;
#302 = CARTESIAN_POINT ( 'NONE',  ( 0.5000000000000004441, 0.000000000000000000, 5.000000000000000000 ) ) ;
#303 = ORIENTED_EDGE ( 'NONE', *, *, #164, .F. ) ;
#304 = CARTESIAN_POINT ( 'NONE',  ( -1.614212418857619014, 0.000000000000000000, 0.000000000000000000 ) ) ;
#305 = PLANE ( 'NONE',  #58 ) ;
#306 = AXIS2_PLACEMENT_3D ( 'NONE', #149, #71, #211 ) ;
#307 = ORIENTED_EDGE ( 'NONE', *, *, #49, .T. ) ;
#308 = CIRCLE ( 'NONE', #306, 5.000000000000000000 ) ;
#309 = DIRECTION ( 'NONE',  ( 0.000000000000000000, 0.000000000000000000, 1.000000000000000000 ) ) ;
#310 = FACE_OUTER_BOUND ( 'NONE', #183, .T. ) ;
#311 = DIRECTION ( 'NONE',  ( 0.000000000000000000, 0.000000000000000000, 1.000000000000000000 ) ) ;
#312 = PERSON_AND_ORGANIZATION ( #34, #200 ) ;
#313 = CC_DESIGN_DATE_AND_TIME_ASSIGNMENT ( #291, #106, ( #171 ) ) ;
#314 = PERSON_AND_ORGANIZATION ( #34, #200 ) ;
#315 = CALENDAR_DATE ( 2021, 5, 1 ) ;
#316 = LOCAL_TIME ( 10, 34, 15.00000000000000000, #217 ) ;
#317 = CC_DESIGN_PERSON_AND_ORGANIZATION_ASSIGNMENT ( #129, #335, ( #17 ) ) ;
#318 = APPROVAL_DATE_TIME ( #57, #67 ) ;
#319 = EDGE_LOOP ( 'NONE', ( #167, #109 ) ) ;
#320 = DIRECTION ( 'NONE',  ( -1.000000000000000000, -0.000000000000000000, -0.000000000000000000 ) ) ;
#321 = ORIENTED_EDGE ( 'NONE', *, *, #137, .T. ) ;
#322 = CARTESIAN_POINT ( 'NONE',  ( -1.614212418857619014, 6.123233995736767268E-16, -5.000000000000000888 ) ) ;
#323 = AXIS2_PLACEMENT_3D ( 'NONE', #78, #75, #24 ) ;
#324 = LOCAL_TIME ( 10, 34, 15.00000000000000000, #243 ) ;
#325 = EDGE_LOOP ( 'NONE', ( #113, #43 ) ) ;
#326 = ORIENTED_EDGE ( 'NONE', *, *, #164, .T. ) ;
#327 = CARTESIAN_POINT ( 'NONE',  ( -1.614212418857619014, 1.555301434917138433E-15, -12.69999999999999929 ) ) ;
#328 = AXIS2_PLACEMENT_3D ( 'NONE', #156, #4, #132 ) ;
#329 = DIRECTION ( 'NONE',  ( 0.000000000000000000, 0.000000000000000000, 1.000000000000000000 ) ) ;
#330 = DIRECTION ( 'NONE',  ( -1.000000000000000000, -0.000000000000000000, -0.000000000000000000 ) ) ;
#331 = CYLINDRICAL_SURFACE ( 'NONE', #134, 5.000000000000000888 ) ;
#332 = EDGE_CURVE ( 'NONE', #33, #276, #23, .T. ) ;
#333 = AXIS2_PLACEMENT_3D ( 'NONE', #263, #27, #239 ) ;
#334 = VERTEX_POINT ( 'NONE', #207 ) ;
#335 = PERSON_AND_ORGANIZATION_ROLE ( 'classification_officer' ) ;
ENDSEC;
END-ISO-10303-21;
